  0
SECTION
  2
HEADER
  9
$ACADVER
  1
AC1009
  9
$INSBASE
 10
0.0
 20
0.0
 30
0.0
  9
$EXTMIN
 10
0.0
 20
0.0
 30
0.0
  9
$EXTMAX
 10
0.000000
 20
0.000000
 30
0.0
  9
$LIMMIN
 10
0.0
 20
0.0
  9
$LIMMAX
 10
0.000000
 20
0.000000
  0
ENDSEC
  0
SECTION
  2
TABLES
  0
TABLE
  2
LTYPE
 70
3
  0
LTYPE
  2
L000000020000008000
 70
64
  3
Solid line
 72
65
 73
0
 40
0.000000
  0
LTYPE
  2
L000000000000000000
 70
64
  3
Solid line
 72
65
 73
0
 40
0.000000
  0
LTYPE
  2
CONTINUOUS
 70
64
  3
Solid line
 72
65
 73
0
 40
0.000000
  0
ENDTAB
  0
TABLE
  2
LAYER
 70
8
  0
LAYER
  2
0
 70
64
 62
7
  6
CONTINUOUS
  0
LAYER
  2
1
 70
64
 62
7
  6
CONTINUOUS
  0
LAYER
  2
2
 70
64
 62
7
  6
CONTINUOUS
  0
LAYER
  2
3
 70
64
 62
7
  6
CONTINUOUS
  0
LAYER
  2
4
 70
64
 62
7
  6
CONTINUOUS
  0
LAYER
  2
5
 70
64
 62
7
  6
CONTINUOUS
  0
LAYER
  2
6
 70
64
 62
-7
  6
CONTINUOUS
  0
LAYER
  2
7
 70
64
 62
7
  6
CONTINUOUS
  0
LAYER
  2
8
 70
64
 62
7
  6
CONTINUOUS
  0
LAYER
  2
9
 70
64
 62
7
  6
CONTINUOUS
  0
LAYER
  2
10
 70
64
 62
7
  6
CONTINUOUS
  0
LAYER
  2
11
 70
64
 62
7
  6
CONTINUOUS
  0
LAYER
  2
12
 70
64
 62
7
  6
CONTINUOUS
  0
LAYER
  2
13
 70
64
 62
7
  6
CONTINUOUS
  0
LAYER
  2
14
 70
64
 62
7
  6
CONTINUOUS
  0
LAYER
  2
15
 70
64
 62
7
  6
CONTINUOUS
  0
LAYER
  2
16
 70
64
 62
7
  6
CONTINUOUS
  0
LAYER
  2
17
 70
64
 62
7
  6
CONTINUOUS
  0
LAYER
  2
18
 70
64
 62
7
  6
CONTINUOUS
  0
LAYER
  2
19
 70
64
 62
7
  6
CONTINUOUS
  0
ENDTAB
  0
ENDSEC
  0
SECTION
  2
BLOCKS
  0
BLOCK
  8
0
  2
sam261
 70
 0
 10
0.0
 20
0.0
 30
0.0
  0
POLYLINE
  8
0
 62
7
  6
CONTINUOUS
 70
1
 66
1
  0
VERTEX
 10
40.000000
 20
-35.000000
 30
0.000000
  8
0
 62
7
  6
CONTINUOUS
  0
VERTEX
 10
40.000000
 20
-15.000000
 30
0.000000
  8
0
 62
7
  6
CONTINUOUS
  0
VERTEX
 10
-5.000000
 20
-15.000000
 30
0.000000
  8
0
 62
7
  6
CONTINUOUS
  0
VERTEX
 10
-5.000000
 20
-35.000000
 30
0.000000
  8
0
 62
7
  6
CONTINUOUS
  0
SEQEND
  0
POLYLINE
  8
0
 62
7
  6
L000000000000000000
 70
1
 66
1
  0
VERTEX
 10
27.000000
 20
-34.500000
 30
0.000000
  8
0
 62
7
  6
L000000000000000000
  0
VERTEX
 10
27.000000
 20
-25.500000
 30
0.000000
  8
0
 62
7
  6
L000000000000000000
  0
VERTEX
 10
23.000000
 20
-25.500000
 30
0.000000
  8
0
 62
7
  6
L000000000000000000
  0
VERTEX
 10
23.000000
 20
-34.500000
 30
0.000000
  8
0
 62
7
  6
L000000000000000000
  0
SEQEND
  0
POLYLINE
  8
0
 62
7
  6
L000000000000000000
 70
1
 66
1
  0
VERTEX
 10
32.000000
 20
-34.500000
 30
0.000000
  8
0
 62
7
  6
L000000000000000000
  0
VERTEX
 10
32.000000
 20
-25.500000
 30
0.000000
  8
0
 62
7
  6
L000000000000000000
  0
VERTEX
 10
28.000000
 20
-25.500000
 30
0.000000
  8
0
 62
7
  6
L000000000000000000
  0
VERTEX
 10
28.000000
 20
-34.500000
 30
0.000000
  8
0
 62
7
  6
L000000000000000000
  0
SEQEND
  0
TEXT
  8
0
 62
7
  6
CONTINUOUS
 10
29.233333
 20
-30.000000
 40
2.300000
  1
6
 50
-90.000000
 51
0.000000
 72
1
 73
0
 11
29.233333
 21
-30.000000
  0
TEXT
  8
0
 62
7
  6
CONTINUOUS
 10
15.000000
 20
-18.666667
 40
2.000000
  1
Schaltaktormodul , 2-fach , 6A
 50
0.000000
 51
0.000000
 72
1
 73
0
 11
15.000000
 21
-18.666667
  0
TEXT
  8
0
 62
7
  6
CONTINUOUS
 10
15.000000
 20
-20.666667
 40
2.000000
  1
ABB Typ:SA/M2.6.1
 50
0.000000
 51
0.000000
 72
1
 73
0
 11
15.000000
 21
-20.666667
  0
POLYLINE
  8
0
 62
7
  6
L000000000000000000
 70
1
 66
1
  0
VERTEX
 10
22.000000
 20
-34.500000
 30
0.000000
  8
0
 62
7
  6
L000000000000000000
  0
VERTEX
 10
22.000000
 20
-25.500000
 30
0.000000
  8
0
 62
7
  6
L000000000000000000
  0
VERTEX
 10
18.000000
 20
-25.500000
 30
0.000000
  8
0
 62
7
  6
L000000000000000000
  0
VERTEX
 10
18.000000
 20
-34.500000
 30
0.000000
  8
0
 62
7
  6
L000000000000000000
  0
SEQEND
  0
TEXT
  8
0
 62
7
  6
CONTINUOUS
 10
24.233333
 20
-30.000000
 40
2.300000
  1
5
 50
-90.000000
 51
0.000000
 72
1
 73
0
 11
24.233333
 21
-30.000000
  0
TEXT
  8
0
 62
7
  6
CONTINUOUS
 10
36.766667
 20
-34.000000
 40
2.500000
  1
EIB/KNX
 50
-90.000000
 51
0.000000
 72
2
 73
0
 11
36.766667
 21
-34.000000
  0
POLYLINE
  8
0
 62
7
  6
L000000000000000000
 70
1
 66
1
  0
VERTEX
 10
2.000000
 20
-34.500000
 30
0.000000
  8
0
 62
7
  6
L000000000000000000
  0
VERTEX
 10
2.000000
 20
-25.500000
 30
0.000000
  8
0
 62
7
  6
L000000000000000000
  0
VERTEX
 10
-2.000000
 20
-25.500000
 30
0.000000
  8
0
 62
7
  6
L000000000000000000
  0
VERTEX
 10
-2.000000
 20
-34.500000
 30
0.000000
  8
0
 62
7
  6
L000000000000000000
  0
SEQEND
  0
POLYLINE
  8
0
 62
7
  6
L000000000000000000
 70
1
 66
1
  0
VERTEX
 10
7.000000
 20
-34.500000
 30
0.000000
  8
0
 62
7
  6
L000000000000000000
  0
VERTEX
 10
7.000000
 20
-25.500000
 30
0.000000
  8
0
 62
7
  6
L000000000000000000
  0
VERTEX
 10
3.000000
 20
-25.500000
 30
0.000000
  8
0
 62
7
  6
L000000000000000000
  0
VERTEX
 10
3.000000
 20
-34.500000
 30
0.000000
  8
0
 62
7
  6
L000000000000000000
  0
SEQEND
  0
TEXT
  8
0
 62
7
  6
CONTINUOUS
 10
4.233333
 20
-30.000000
 40
2.300000
  1
2
 50
-90.000000
 51
0.000000
 72
1
 73
0
 11
4.233333
 21
-30.000000
  0
POLYLINE
  8
0
 62
7
  6
L000000000000000000
 70
1
 66
1
  0
VERTEX
 10
12.000000
 20
-34.500000
 30
0.000000
  8
0
 62
7
  6
L000000000000000000
  0
VERTEX
 10
12.000000
 20
-25.500000
 30
0.000000
  8
0
 62
7
  6
L000000000000000000
  0
VERTEX
 10
8.000000
 20
-25.500000
 30
0.000000
  8
0
 62
7
  6
L000000000000000000
  0
VERTEX
 10
8.000000
 20
-34.500000
 30
0.000000
  8
0
 62
7
  6
L000000000000000000
  0
SEQEND
  0
TEXT
  8
0
 62
7
  6
CONTINUOUS
 10
9.233333
 20
-30.000000
 40
2.300000
  1
3
 50
-90.000000
 51
0.000000
 72
1
 73
0
 11
9.233333
 21
-30.000000
  0
POLYLINE
  8
0
 62
7
  6
CONTINUOUS
 70
0
 66
1
  0
VERTEX
 10
15.000000
 20
-15.000000
  8
0
 62
7
  6
CONTINUOUS
  0
VERTEX
 10
15.000000
 20
-10.000000
  8
0
 62
7
  6
CONTINUOUS
  0
SEQEND
  0
CIRCLE
  8
0
 62
7
  6
CONTINUOUS
 10
15.000000
 20
-10.000000
 30
0.0
 40
0.400000
  0
TEXT
  8
0
 62
7
  6
CONTINUOUS
 10
15.000000
 20
-30.000000
 40
1.800000
  1
Kanal B
 50
-90.000000
 51
0.000000
 72
1
 73
1
 11
15.000000
 21
-30.000000
  0
TEXT
  8
0
 62
7
  6
CONTINUOUS
 10
-5.000000
 20
-30.000000
 40
1.800000
  1
Kanal A
 50
-90.000000
 51
0.000000
 72
1
 73
1
 11
-5.000000
 21
-30.000000
  0
TEXT
  8
0
 62
7
  6
CONTINUOUS
 10
-0.766667
 20
-30.000000
 40
2.300000
  1
1
 50
-90.000000
 51
0.000000
 72
1
 73
0
 11
-0.766667
 21
-30.000000
  0
TEXT
  8
0
 62
7
  6
CONTINUOUS
 10
19.233333
 20
-30.000000
 40
2.300000
  1
4
 50
-90.000000
 51
0.000000
 72
1
 73
0
 11
19.233333
 21
-30.000000
  0
TEXT
  8
1
 62
7
  6
CONTINUOUS
 10
-50.000000
 20
-295.000000
 40
0.000000
  1

 50
0.000000
 51
0.000000
 72
2
 73
0
 11
-50.000000
 21
-295.000000
  0
ENDBLK
  0
ENDSEC
  0
SECTION
  2
ENTITIES
  0
INSERT
  8
0
 2
sam261
 10
0.000000
 20
-285.000000
 30
0.0
 50
0.0
  0
ENDSEC
  0
EOF
